ISO-10303-21;
HEADER;
FILE_DESCRIPTION(('STEP AP214'),'1');
FILE_NAME('POL-S.stp','2021-11-12T10:28:51',(' '),(' '),'Spatial InterOp 3D',' ',' ');
FILE_SCHEMA(('automotive_design'));
ENDSEC;
DATA;
#1=MECHANICAL_DESIGN_GEOMETRIC_PRESENTATION_REPRESENTATION(' ',(#10,#11,#12,#13,#14,#15,#16,#17,#18,#19,#20),#6);
#2=PRODUCT_DEFINITION_CONTEXT('',#21,'design');
#3=APPLICATION_PROTOCOL_DEFINITION('INTERNATIONAL STANDARD','automotive_design',1994,#21);
#4=PRODUCT_CATEGORY_RELATIONSHIP('NONE','NONE',#22,#23);
#5=SHAPE_DEFINITION_REPRESENTATION(#24,#25);
#6= (GEOMETRIC_REPRESENTATION_CONTEXT(3)GLOBAL_UNCERTAINTY_ASSIGNED_CONTEXT((#28))GLOBAL_UNIT_ASSIGNED_CONTEXT((#30,#31,#32))REPRESENTATION_CONTEXT('NONE','WORKSPACE'));
#10=STYLED_ITEM('',(#34),#35);
#11=STYLED_ITEM('',(#36),#37);
#12=STYLED_ITEM('',(#38),#39);
#13=STYLED_ITEM('',(#40),#41);
#14=STYLED_ITEM('',(#42),#43);
#15=STYLED_ITEM('',(#44),#45);
#16=STYLED_ITEM('',(#46),#47);
#17=STYLED_ITEM('',(#48),#49);
#18=STYLED_ITEM('',(#50),#51);
#19=STYLED_ITEM('',(#52),#53);
#20=STYLED_ITEM('',(#54),#55);
#21=APPLICATION_CONTEXT(' ');
#22=PRODUCT_CATEGORY('part','NONE');
#23=PRODUCT_RELATED_PRODUCT_CATEGORY('detail',' ',(#56));
#24=PRODUCT_DEFINITION_SHAPE('NONE','NONE',#57);
#25=ADVANCED_BREP_SHAPE_REPRESENTATION('1',(#58,#59),#6);
#28=UNCERTAINTY_MEASURE_WITH_UNIT(LENGTH_MEASURE(1.0E-006),#30,'','');
#30= (CONVERSION_BASED_UNIT('METRE',#62)LENGTH_UNIT()NAMED_UNIT(#65));
#31= (NAMED_UNIT(#67)PLANE_ANGLE_UNIT()SI_UNIT($,.RADIAN.));
#32= (NAMED_UNIT(#67)SOLID_ANGLE_UNIT()SI_UNIT($,.STERADIAN.));
#34=PRESENTATION_STYLE_ASSIGNMENT((#73));
#35=ADVANCED_FACE('',(#74),#75,.F.);
#36=PRESENTATION_STYLE_ASSIGNMENT((#76));
#37=ADVANCED_FACE('',(#77),#78,.F.);
#38=PRESENTATION_STYLE_ASSIGNMENT((#79));
#39=ADVANCED_FACE('',(#80),#81,.T.);
#40=PRESENTATION_STYLE_ASSIGNMENT((#82));
#41=ADVANCED_FACE('',(#83),#84,.F.);
#42=PRESENTATION_STYLE_ASSIGNMENT((#85));
#43=ADVANCED_FACE('',(#86),#87,.T.);
#44=PRESENTATION_STYLE_ASSIGNMENT((#88));
#45=ADVANCED_FACE('',(#89),#90,.T.);
#46=PRESENTATION_STYLE_ASSIGNMENT((#91));
#47=ADVANCED_FACE('',(#92),#93,.T.);
#48=PRESENTATION_STYLE_ASSIGNMENT((#94));
#49=ADVANCED_FACE('',(#95),#96,.F.);
#50=PRESENTATION_STYLE_ASSIGNMENT((#97));
#51=ADVANCED_FACE('',(#98),#99,.F.);
#52=PRESENTATION_STYLE_ASSIGNMENT((#100));
#53=ADVANCED_FACE('',(#101,#102),#103,.F.);
#54=PRESENTATION_STYLE_ASSIGNMENT((#104));
#55=ADVANCED_FACE('',(#105),#106,.T.);
#56=PRODUCT('1','1','PART-1-DESC',(#107));
#57=PRODUCT_DEFINITION('NONE','NONE',#108,#2);
#58=MANIFOLD_SOLID_BREP('1',#109);
#59=AXIS2_PLACEMENT_3D('',#110,#111,#112);
#62=LENGTH_MEASURE_WITH_UNIT(LENGTH_MEASURE(1.0),#113);
#65=DIMENSIONAL_EXPONENTS(1.0,0.0,0.0,0.0,0.0,0.0,0.0);
#67=DIMENSIONAL_EXPONENTS(0.0,0.0,0.0,0.0,0.0,0.0,0.0);
#73=SURFACE_STYLE_USAGE(.BOTH.,#114);
#74=FACE_OUTER_BOUND('',#115,.T.);
#75=PLANE('',#116);
#76=SURFACE_STYLE_USAGE(.BOTH.,#117);
#77=FACE_OUTER_BOUND('',#118,.T.);
#78=PLANE('',#119);
#79=SURFACE_STYLE_USAGE(.BOTH.,#120);
#80=FACE_OUTER_BOUND('',#121,.T.);
#81=PLANE('',#122);
#82=SURFACE_STYLE_USAGE(.BOTH.,#123);
#83=FACE_OUTER_BOUND('',#124,.T.);
#84=PLANE('',#125);
#85=SURFACE_STYLE_USAGE(.BOTH.,#126);
#86=FACE_OUTER_BOUND('',#127,.T.);
#87=PLANE('',#128);
#88=SURFACE_STYLE_USAGE(.BOTH.,#129);
#89=FACE_OUTER_BOUND('',#130,.T.);
#90=CONICAL_SURFACE('',#131,0.00146,0.174532925199433);
#91=SURFACE_STYLE_USAGE(.BOTH.,#132);
#92=FACE_OUTER_BOUND('',#133,.T.);
#93=PLANE('',#134);
#94=SURFACE_STYLE_USAGE(.BOTH.,#135);
#95=FACE_OUTER_BOUND('',#136,.T.);
#96=PLANE('',#137);
#97=SURFACE_STYLE_USAGE(.BOTH.,#138);
#98=FACE_OUTER_BOUND('',#139,.T.);
#99=PLANE('',#140);
#100=SURFACE_STYLE_USAGE(.BOTH.,#141);
#101=FACE_OUTER_BOUND('',#142,.T.);
#102=FACE_BOUND('',#143,.T.);
#103=PLANE('',#144);
#104=SURFACE_STYLE_USAGE(.BOTH.,#145);
#105=FACE_OUTER_BOUND('',#146,.T.);
#106=PLANE('',#147);
#107=PRODUCT_CONTEXT('',#21,'mechanical');
#108=PRODUCT_DEFINITION_FORMATION_WITH_SPECIFIED_SOURCE(' ','NONE',#56,.NOT_KNOWN.);
#109=CLOSED_SHELL('',(#35,#37,#39,#41,#43,#45,#47,#49,#51,#53,#55));
#110=CARTESIAN_POINT('',(0.0,0.0,0.0));
#111=DIRECTION('',(0.0,0.0,1.0));
#112=DIRECTION('',(1.0,0.0,0.0));
#113= (NAMED_UNIT(#65)LENGTH_UNIT()SI_UNIT($,.METRE.));
#114=SURFACE_SIDE_STYLE('',(#149));
#115=EDGE_LOOP('',(#150,#151,#152,#153));
#116=AXIS2_PLACEMENT_3D('',#154,#155,#156);
#117=SURFACE_SIDE_STYLE('',(#157));
#118=EDGE_LOOP('',(#158,#159,#160,#161));
#119=AXIS2_PLACEMENT_3D('',#162,#163,#164);
#120=SURFACE_SIDE_STYLE('',(#165));
#121=EDGE_LOOP('',(#166,#167,#168,#169));
#122=AXIS2_PLACEMENT_3D('',#170,#171,#172);
#123=SURFACE_SIDE_STYLE('',(#173));
#124=EDGE_LOOP('',(#174,#175,#176,#177));
#125=AXIS2_PLACEMENT_3D('',#178,#179,#180);
#126=SURFACE_SIDE_STYLE('',(#181));
#127=EDGE_LOOP('',(#182,#183,#184,#185));
#128=AXIS2_PLACEMENT_3D('',#186,#187,#188);
#129=SURFACE_SIDE_STYLE('',(#189));
#130=EDGE_LOOP('',(#190,#191,#192,#193));
#131=AXIS2_PLACEMENT_3D('',#194,#195,#196);
#132=SURFACE_SIDE_STYLE('',(#197));
#133=EDGE_LOOP('',(#198,#199,#200,#201));
#134=AXIS2_PLACEMENT_3D('',#202,#203,#204);
#135=SURFACE_SIDE_STYLE('',(#205));
#136=EDGE_LOOP('',(#206,#207,#208,#209));
#137=AXIS2_PLACEMENT_3D('',#210,#211,#212);
#138=SURFACE_SIDE_STYLE('',(#213));
#139=EDGE_LOOP('',(#214,#215,#216,#217));
#140=AXIS2_PLACEMENT_3D('',#218,#219,#220);
#141=SURFACE_SIDE_STYLE('',(#221));
#142=EDGE_LOOP('',(#222,#223,#224,#225));
#143=EDGE_LOOP('',(#226,#227,#228,#229));
#144=AXIS2_PLACEMENT_3D('',#230,#231,#232);
#145=SURFACE_SIDE_STYLE('',(#233));
#146=EDGE_LOOP('',(#234,#235,#236,#237));
#147=AXIS2_PLACEMENT_3D('',#238,#239,#240);
#149=SURFACE_STYLE_FILL_AREA(#241);
#150=ORIENTED_EDGE('',*,*,#242,.F.);
#151=ORIENTED_EDGE('',*,*,#243,.T.);
#152=ORIENTED_EDGE('',*,*,#244,.F.);
#153=ORIENTED_EDGE('',*,*,#245,.F.);
#154=CARTESIAN_POINT('',(0.340244730855484,0.506402081499975,0.0168099999999999));
#155=DIRECTION('',(-0.0,-0.0,-1.0));
#156=DIRECTION('',(0.0,-1.0,0.0));
#157=SURFACE_STYLE_FILL_AREA(#246);
#158=ORIENTED_EDGE('',*,*,#247,.F.);
#159=ORIENTED_EDGE('',*,*,#248,.T.);
#160=ORIENTED_EDGE('',*,*,#242,.T.);
#161=ORIENTED_EDGE('',*,*,#249,.F.);
#162=CARTESIAN_POINT('',(0.340244730855484,0.506952081499975,0.0165999999999999));
#163=DIRECTION('',(0.0,-1.0,0.0));
#164=DIRECTION('',(0.0,0.0,-1.0));
#165=SURFACE_STYLE_FILL_AREA(#250);
#166=ORIENTED_EDGE('',*,*,#251,.F.);
#167=ORIENTED_EDGE('',*,*,#252,.F.);
#168=ORIENTED_EDGE('',*,*,#253,.F.);
#169=ORIENTED_EDGE('',*,*,#254,.T.);
#170=CARTESIAN_POINT('',(0.340544730855484,0.508148531499975,0.0166999999999999));
#171=DIRECTION('',(1.0,1.05284775715366E-030,-2.70948843816861E-015));
#172=DIRECTION('',(0.0,1.0,3.88578058618805E-016));
#173=SURFACE_STYLE_FILL_AREA(#255);
#174=ORIENTED_EDGE('',*,*,#245,.T.);
#175=ORIENTED_EDGE('',*,*,#256,.F.);
#176=ORIENTED_EDGE('',*,*,#257,.F.);
#177=ORIENTED_EDGE('',*,*,#249,.T.);
#178=CARTESIAN_POINT('',(0.340244730855484,0.506402081499975,0.0165999999999999));
#179=DIRECTION('',(-1.0,0.0,0.0));
#180=DIRECTION('',(0.0,0.0,1.0));
#181=SURFACE_STYLE_FILL_AREA(#258);
#182=ORIENTED_EDGE('',*,*,#259,.T.);
#183=ORIENTED_EDGE('',*,*,#253,.T.);
#184=ORIENTED_EDGE('',*,*,#260,.F.);
#185=ORIENTED_EDGE('',*,*,#261,.F.);
#186=CARTESIAN_POINT('',(0.340544730855485,0.508112081499975,0.0166999999999999));
#187=DIRECTION('',(0.0,0.984807753012208,-0.17364817766693));
#188=DIRECTION('',(-1.0,0.0,0.0));
#189=SURFACE_STYLE_FILL_AREA(#262);
#190=ORIENTED_EDGE('',*,*,#263,.T.);
#191=ORIENTED_EDGE('',*,*,#261,.T.);
#192=ORIENTED_EDGE('',*,*,#264,.F.);
#193=ORIENTED_EDGE('',*,*,#265,.F.);
#194=CARTESIAN_POINT('',(0.333924730855485,0.506652081499975,0.0167));
#195=DIRECTION('',(2.70948843816861E-015,-4.12694174630371E-016,1.0));
#196=DIRECTION('',(1.0,-6.66133814775094E-016,-2.70948843816861E-015));
#197=SURFACE_STYLE_FILL_AREA(#266);
#198=ORIENTED_EDGE('',*,*,#267,.F.);
#199=ORIENTED_EDGE('',*,*,#251,.T.);
#200=ORIENTED_EDGE('',*,*,#268,.T.);
#201=ORIENTED_EDGE('',*,*,#265,.T.);
#202=CARTESIAN_POINT('',(0.333924730855484,0.505192081499975,0.0167));
#203=DIRECTION('',(-9.9920072216264E-016,-0.984807753012208,-0.173648177666931));
#204=DIRECTION('',(0.0,0.173648177666931,-0.984807753012208));
#205=SURFACE_STYLE_FILL_AREA(#269);
#206=ORIENTED_EDGE('',*,*,#244,.T.);
#207=ORIENTED_EDGE('',*,*,#270,.T.);
#208=ORIENTED_EDGE('',*,*,#271,.F.);
#209=ORIENTED_EDGE('',*,*,#256,.T.);
#210=CARTESIAN_POINT('',(0.337744730855484,0.506352081499975,0.0165999999999999));
#211=DIRECTION('',(0.0,1.0,0.0));
#212=DIRECTION('',(1.0,0.0,-0.0));
#213=SURFACE_STYLE_FILL_AREA(#272);
#214=ORIENTED_EDGE('',*,*,#270,.F.);
#215=ORIENTED_EDGE('',*,*,#243,.F.);
#216=ORIENTED_EDGE('',*,*,#248,.F.);
#217=ORIENTED_EDGE('',*,*,#273,.F.);
#218=CARTESIAN_POINT('',(0.337244730855484,0.506902081499975,0.0165999999999999));
#219=DIRECTION('',(0.205517234286412,0.0,-0.978653496601971));
#220=DIRECTION('',(0.0,-1.0,0.0));
#221=SURFACE_STYLE_FILL_AREA(#274);
#222=ORIENTED_EDGE('',*,*,#268,.F.);
#223=ORIENTED_EDGE('',*,*,#254,.F.);
#224=ORIENTED_EDGE('',*,*,#259,.F.);
#225=ORIENTED_EDGE('',*,*,#263,.F.);
#226=ORIENTED_EDGE('',*,*,#257,.T.);
#227=ORIENTED_EDGE('',*,*,#271,.T.);
#228=ORIENTED_EDGE('',*,*,#273,.T.);
#229=ORIENTED_EDGE('',*,*,#247,.T.);
#230=CARTESIAN_POINT('',(0.434020080867355,0.53323057699951,0.0165999999999997));
#231=DIRECTION('',(-1.952518194106E-015,4.82083113669443E-016,-1.0));
#232=DIRECTION('',(-1.0,0.0,1.952518194106E-015));
#233=SURFACE_STYLE_FILL_AREA(#275);
#234=ORIENTED_EDGE('',*,*,#252,.T.);
#235=ORIENTED_EDGE('',*,*,#267,.T.);
#236=ORIENTED_EDGE('',*,*,#264,.T.);
#237=ORIENTED_EDGE('',*,*,#260,.T.);
#238=CARTESIAN_POINT('',(0.340544730855484,0.506927081499975,0.01605));
#239=DIRECTION('',(-2.70948843816861E-015,4.12694174630371E-016,-1.0));
#240=DIRECTION('',(-1.0,0.0,2.70948843816861E-015));
#241=FILL_AREA_STYLE('',(#276));
#242=EDGE_CURVE('',#277,#278,#279,.T.);
#243=EDGE_CURVE('',#277,#280,#281,.T.);
#244=EDGE_CURVE('',#282,#280,#283,.T.);
#245=EDGE_CURVE('',#278,#282,#284,.T.);
#246=FILL_AREA_STYLE('',(#285));
#247=EDGE_CURVE('',#286,#287,#288,.T.);
#248=EDGE_CURVE('',#286,#277,#289,.T.);
#249=EDGE_CURVE('',#287,#278,#290,.T.);
#250=FILL_AREA_STYLE('',(#291));
#251=EDGE_CURVE('',#292,#293,#294,.T.);
#252=EDGE_CURVE('',#295,#292,#296,.T.);
#253=EDGE_CURVE('',#297,#295,#298,.T.);
#254=EDGE_CURVE('',#297,#293,#299,.T.);
#255=FILL_AREA_STYLE('',(#300));
#256=EDGE_CURVE('',#301,#282,#302,.T.);
#257=EDGE_CURVE('',#287,#301,#303,.T.);
#258=FILL_AREA_STYLE('',(#304));
#259=EDGE_CURVE('',#305,#297,#306,.T.);
#260=EDGE_CURVE('',#307,#295,#308,.T.);
#261=EDGE_CURVE('',#305,#307,#309,.T.);
#262=FILL_AREA_STYLE('',(#310));
#263=EDGE_CURVE('',#311,#305,#312,.T.);
#264=EDGE_CURVE('',#313,#307,#314,.T.);
#265=EDGE_CURVE('',#311,#313,#315,.T.);
#266=FILL_AREA_STYLE('',(#316));
#267=EDGE_CURVE('',#292,#313,#317,.T.);
#268=EDGE_CURVE('',#293,#311,#318,.T.);
#269=FILL_AREA_STYLE('',(#319));
#270=EDGE_CURVE('',#280,#320,#321,.T.);
#271=EDGE_CURVE('',#301,#320,#322,.T.);
#272=FILL_AREA_STYLE('',(#323));
#273=EDGE_CURVE('',#320,#286,#324,.T.);
#274=FILL_AREA_STYLE('',(#325));
#275=FILL_AREA_STYLE('',(#326));
#276=FILL_AREA_STYLE_COLOUR('',#327);
#277=VERTEX_POINT('',#328);
#278=VERTEX_POINT('',#329);
#279=LINE('',#330,#331);
#280=VERTEX_POINT('',#332);
#281=LINE('',#333,#334);
#282=VERTEX_POINT('',#335);
#283=LINE('',#336,#337);
#284=LINE('',#338,#339);
#285=FILL_AREA_STYLE_COLOUR('',#340);
#286=VERTEX_POINT('',#341);
#287=VERTEX_POINT('',#342);
#288=LINE('',#343,#344);
#289=LINE('',#345,#346);
#290=LINE('',#347,#348);
#291=FILL_AREA_STYLE_COLOUR('',#349);
#292=VERTEX_POINT('',#350);
#293=VERTEX_POINT('',#351);
#294=LINE('',#352,#353);
#295=VERTEX_POINT('',#354);
#296=LINE('',#355,#356);
#297=VERTEX_POINT('',#357);
#298=LINE('',#358,#359);
#299=LINE('',#360,#361);
#300=FILL_AREA_STYLE_COLOUR('',#362);
#301=VERTEX_POINT('',#363);
#302=LINE('',#364,#365);
#303=LINE('',#366,#367);
#304=FILL_AREA_STYLE_COLOUR('',#368);
#305=VERTEX_POINT('',#369);
#306=LINE('',#370,#371);
#307=VERTEX_POINT('',#372);
#308=LINE('',#373,#374);
#309=LINE('',#375,#376);
#310=FILL_AREA_STYLE_COLOUR('',#377);
#311=VERTEX_POINT('',#378);
#312=CIRCLE('',#379,0.00144236730192914);
#313=VERTEX_POINT('',#380);
#314=CIRCLE('',#381,0.0013453874625395);
#315=LINE('',#382,#383);
#316=FILL_AREA_STYLE_COLOUR('',#384);
#317=LINE('',#385,#386);
#318=LINE('',#387,#388);
#319=FILL_AREA_STYLE_COLOUR('',#389);
#320=VERTEX_POINT('',#390);
#321=LINE('',#391,#392);
#322=LINE('',#393,#394);
#323=FILL_AREA_STYLE_COLOUR('',#395);
#324=LINE('',#396,#397);
#325=FILL_AREA_STYLE_COLOUR('',#398);
#326=FILL_AREA_STYLE_COLOUR('',#399);
#327=COLOUR_RGB('',1.0,0.0,0.501960813999176);
#328=CARTESIAN_POINT('',(0.338244730855484,0.506952081499975,0.0168099999999999));
#329=CARTESIAN_POINT('',(0.340244730855484,0.506952081499975,0.0168099999999999));
#330=CARTESIAN_POINT('',(0.340244730855484,0.506952081499975,0.0168099999999999));
#331=VECTOR('',#400,1.0);
#332=CARTESIAN_POINT('',(0.338244730855484,0.506352081499975,0.0168099999999999));
#333=CARTESIAN_POINT('',(0.338244730855484,0.506402081499975,0.0168099999999999));
#334=VECTOR('',#401,1.0);
#335=CARTESIAN_POINT('',(0.340244730855484,0.506352081499975,0.0168099999999999));
#336=CARTESIAN_POINT('',(0.337744730855484,0.506352081499975,0.0168099999999999));
#337=VECTOR('',#402,1.0);
#338=CARTESIAN_POINT('',(0.340244730855484,0.506402081499975,0.0168099999999999));
#339=VECTOR('',#403,1.0);
#340=COLOUR_RGB('',1.0,0.0,0.501960813999176);
#341=CARTESIAN_POINT('',(0.337244730855484,0.506952081499975,0.0165999999999999));
#342=CARTESIAN_POINT('',(0.340244730855484,0.506952081499975,0.0165999999999999));
#343=CARTESIAN_POINT('',(0.340244730855484,0.506952081499975,0.0165999999999999));
#344=VECTOR('',#404,1.0);
#345=CARTESIAN_POINT('',(0.337244730855484,0.506952081499975,0.0165999999999999));
#346=VECTOR('',#405,1.0);
#347=CARTESIAN_POINT('',(0.340244730855484,0.506952081499975,0.0165999999999999));
#348=VECTOR('',#406,1.0);
#349=COLOUR_RGB('',1.0,0.0,0.501960813999176);
#350=CARTESIAN_POINT('',(0.340544730855485,0.505306694037435,0.01605));
#351=CARTESIAN_POINT('',(0.340544730855484,0.505209714198045,0.0165999999999999));
#352=CARTESIAN_POINT('',(0.340544730855484,0.505192081499975,0.0167));
#353=VECTOR('',#407,1.0);
#354=CARTESIAN_POINT('',(0.340544730855485,0.507997468962514,0.01605));
#355=CARTESIAN_POINT('',(0.340544730855485,0.505228531499975,0.01605));
#356=VECTOR('',#408,1.0);
#357=CARTESIAN_POINT('',(0.340544730855484,0.508094448801904,0.0165999999999999));
#358=CARTESIAN_POINT('',(0.340544730855484,0.508112081499975,0.0166999999999999));
#359=VECTOR('',#409,1.0);
#360=CARTESIAN_POINT('',(0.340544730855484,0.53326702699951,0.0165999999999999));
#361=VECTOR('',#410,1.0);
#362=COLOUR_RGB('',1.0,0.0,0.501960813999176);
#363=CARTESIAN_POINT('',(0.340244730855484,0.506352081499975,0.0165999999999999));
#364=CARTESIAN_POINT('',(0.340244730855484,0.506352081499975,0.0165999999999999));
#365=VECTOR('',#411,1.0);
#366=CARTESIAN_POINT('',(0.340244730855484,0.506402081499975,0.0165999999999999));
#367=VECTOR('',#412,1.0);
#368=COLOUR_RGB('',1.0,0.0,0.501960813999176);
#369=CARTESIAN_POINT('',(0.333924730855484,0.508094448801904,0.0165999999999999));
#370=CARTESIAN_POINT('',(0.434020080867355,0.508094448801904,0.0165999999999997));
#371=VECTOR('',#413,1.0);
#372=CARTESIAN_POINT('',(0.333924730855485,0.507997468962514,0.01605));
#373=CARTESIAN_POINT('',(0.333924730855485,0.507997468962514,0.01605));
#374=VECTOR('',#414,1.0);
#375=CARTESIAN_POINT('',(0.333924730855484,0.508068057113148,0.0164503252953722));
#376=VECTOR('',#415,1.0);
#377=COLOUR_RGB('',1.0,0.0,0.501960813999176);
#378=CARTESIAN_POINT('',(0.333924730855484,0.505209714198046,0.0165999999999999));
#379=AXIS2_PLACEMENT_3D('',#416,#417,#418);
#380=CARTESIAN_POINT('',(0.333924730855485,0.505306694037435,0.01605));
#381=AXIS2_PLACEMENT_3D('',#419,#420,#421);
#382=CARTESIAN_POINT('',(0.333924730855484,0.505236105886801,0.0164503252953722));
#383=VECTOR('',#422,1.0);
#384=COLOUR_RGB('',1.0,0.0,0.501960813999176);
#385=CARTESIAN_POINT('',(0.333924730855485,0.505306694037435,0.01605));
#386=VECTOR('',#423,1.0);
#387=CARTESIAN_POINT('',(0.434020080867355,0.505209714198045,0.0165999999999997));
#388=VECTOR('',#424,1.0);
#389=COLOUR_RGB('',1.0,0.0,0.501960813999176);
#390=CARTESIAN_POINT('',(0.337244730855484,0.506352081499975,0.0165999999999999));
#391=CARTESIAN_POINT('',(0.337244730855484,0.506352081499975,0.0165999999999999));
#392=VECTOR('',#425,1.0);
#393=CARTESIAN_POINT('',(0.337744730855484,0.506352081499975,0.0165999999999999));
#394=VECTOR('',#426,1.0);
#395=COLOUR_RGB('',1.0,0.0,0.501960813999176);
#396=CARTESIAN_POINT('',(0.337244730855484,0.506902081499975,0.0165999999999999));
#397=VECTOR('',#427,1.0);
#398=COLOUR_RGB('',1.0,0.0,0.501960813999176);
#399=COLOUR_RGB('',1.0,0.0,0.501960813999176);
#400=DIRECTION('',(1.0,0.0,0.0));
#401=DIRECTION('',(0.0,-1.0,0.0));
#402=DIRECTION('',(-1.0,0.0,0.0));
#403=DIRECTION('',(0.0,-1.0,0.0));
#404=DIRECTION('',(1.0,0.0,0.0));
#405=DIRECTION('',(0.978653496601971,-0.0,0.205517234286412));
#406=DIRECTION('',(0.0,0.0,1.0));
#407=DIRECTION('',(2.60084934884488E-015,-0.173648177666931,0.984807753012208));
#408=DIRECTION('',(-6.66133814775094E-016,-1.0,-4.12694174630369E-016));
#409=DIRECTION('',(-2.73580109236589E-015,-0.17364817766693,-0.984807753012208));
#410=DIRECTION('',(-3.88578058618805E-016,-1.0,-4.82083113669442E-016));
#411=DIRECTION('',(0.0,0.0,1.0));
#412=DIRECTION('',(0.0,-1.0,0.0));
#413=DIRECTION('',(1.0,-3.44281637945055E-016,-1.952518194106E-015));
#414=DIRECTION('',(1.0,-6.66133814775094E-016,-2.70948843816861E-015));
#415=DIRECTION('',(-2.70616862252382E-015,-0.17364817766693,-0.984807753012208));
#416=CARTESIAN_POINT('',(0.333924730855485,0.506652081499975,0.0165999999999999));
#417=DIRECTION('',(-1.952518194106E-015,4.82083113669443E-016,-1.0));
#418=DIRECTION('',(-1.0,0.0,1.952518194106E-015));
#419=CARTESIAN_POINT('',(0.333924730855485,0.506652081499975,0.01605));
#420=DIRECTION('',(-2.70948843816861E-015,4.12694174630371E-016,-1.0));
#421=DIRECTION('',(-1.0,6.66133814775094E-016,2.70948843816861E-015));
#422=DIRECTION('',(-2.5951463200613E-015,0.173648177666931,-0.984807753012208));
#423=DIRECTION('',(-1.0,6.66133814775094E-016,2.70948843816861E-015));
#424=DIRECTION('',(-1.0,6.70333365954343E-016,1.952518194106E-015));
#425=DIRECTION('',(-0.978653496601971,-0.0,-0.205517234286412));
#426=DIRECTION('',(-1.0,0.0,0.0));
#427=DIRECTION('',(0.0,1.0,0.0));
#428=PRESENTATION_LAYER_ASSIGNMENT('POL-S (APRILE 2010)','',(#58));
ENDSEC;
END-ISO-10303-21;
